Список форумов Машина Времени Машина Времени
- Форум сайта -
 
 FAQFAQ   ПоискПоиск   ПользователиПользователи   ГруппыГруппы   СтатистикаСтатистика   РегистрацияРегистрация 
 ПрофильПрофиль   ВходВход 
ДневникиДневники   

Битва гнева или День с дураками

Пользователи, просматривающие этот топик: зарегистрированных: 0, скрытых: 0 и гостей: 0
Зарегистрированные пользователи: Нет
Начать новую тему   Ответить на тему    Список форумов Машина Времени -> Аккорды
 
Автор Сообщение
Kostr
Элитный Машинист


Возраст: 32
По зодиаку: Козерог
Пол: Пол:Муж
Дата регистрации: 06.01.2004
Сообщения: 1284

СообщениеДобавлено: Tue Sep 27, 2005 21:57 Ответить с цитатой

Все обещаюсь ЧБ цвет выслать, да что то никак руки не доходят. Вот, пока сварганил...

Битва с дураками (День гнева)

Вставьте в Блокнот, а то табы поехали.

Бас партия - подобрано частично с той версии, где играет Кутиков, частично с той, где Маргулис.

Постарался проставаить длительность, насколько табулатурная запись позволятет это сделать.

Код:
                                             

G||------------------------|---------------------------|
D||------------------------|---------------------------|
A||-------4----5----5/-7-7-|-------4-4--5----5-5--7-7--|
E||--5---------------------|--5-5----------------------|


-----------------------------|---------------------------|
---------------7-9--9--9-9-9-|---7-----7--9--7-----------|
-------5-7--9----------------|------9-----------9-9-7-5--|
--7-7------------------------|---------------------------|


Это была партия на основной куплет. Расписывать вступление, где надо бить по одной ноте в такт аккордам, и аналогичное завершение не буду. А вот соло на ЭГ - пожалте... Все с длительностями.

Код:

                                                         
--------------------------|-----------------------------|
--------------------------|-----------------------------|
----------7---------------|-----------------------------|
-----7-9-----9--7------9--|--7-------------------9--7---|
--9---------------9-------|----9-7--5-------5-7-------9-|
--------------------------|-----------7--7--------------|


                                                         
---------------------------|----------------------------|
---------------------------|----------------------------|
---------------------------|----------------------------|
-----------------9--7------|----------------------------|
--7--5------5-7-------9-7--|--5-------5-5-7--5----------|
---------7-----------------|----7--7------------7-5--7--|


                                                         
----------------------------|---------------------------|
----------------------------|---------------------------|
----------6/7--6------------|---------------------------|
------------------9-7-------|----------9--7-------------|
-----5-7---------------5----|-----5-7-------9-7--5------|
--7----------------------7--|--7---------------------7--|


                                                       
-----------------------------|------------------------|
-----------------------------|------------------------|
-----------------------------|------------------------|
-------9--7------------------|------------------------|
--5-7-------9-7--5-------5/7-|--5-----5-5-------------|
-------------------7--5------|-----7-------7--------5-|


                                                                           
-------------------------|-----------------------|------------------------|
-------------------------|-----------------------|------------------------|
-------------------------|-----------------------|------------------------|
-------------------------|-----------------------|----------------9-7-----|
-----5-5--5--------------|---5--5------------7-5-|-------7-------------9--|
--7---------7--------5-7-|--------7--------------|----7----7--------------|


                       
----------------------||
----------------------||
----------------------||
----------------------||
--7-------------------||
----5--------5/-7-----||


Последний раз редактировалось: Kostr (Wed Sep 28, 2005 14:37), всего редактировалось 1 раз
Вернуться к началу
Посмотреть профиль Посетить сайт автора
Kostr
Элитный Машинист


Возраст: 32
По зодиаку: Козерог
Пол: Пол:Муж
Дата регистрации: 06.01.2004
Сообщения: 1284

СообщениеДобавлено: Tue Sep 27, 2005 21:59 Ответить с цитатой

Мог бы вложить мидишку - там все ясней, да никак - вложить файл не удасться... Sad
Вернуться к началу
Посмотреть профиль Посетить сайт автора
Viktor
Элитный Машинист




Пол: Пол:Муж
Дата регистрации: 25.04.2005
Сообщения: 4030
Откуда: Белибердичев Рио-де-Житомирской обл.

СообщениеДобавлено: Tue Sep 27, 2005 23:43 Ответить с цитатой

Они же махонькие обычно. Должна влезть.
Вернуться к началу
Посмотреть профиль
Kostr
Элитный Машинист


Возраст: 32
По зодиаку: Козерог
Пол: Пол:Муж
Дата регистрации: 06.01.2004
Сообщения: 1284

СообщениеДобавлено: Wed Sep 28, 2005 12:27 Ответить с цитатой

Я не могу вкладывать файлы. А он махонький - полтора килобайта. Smile
Вернуться к началу
Посмотреть профиль Посетить сайт автора
Basil IV
Участник слётов


Возраст: 39
По зодиаку: Рыбы
Пол: Пол:Муж
Дата регистрации: 12.03.2001
Сообщения: 3847
Откуда: Yaroslavl, RF

СообщениеДобавлено: Wed Sep 28, 2005 13:13 Ответить с цитатой

Чтобы оформление не разъезжалось, надо использовать тег code.

Т.е.
Код:
G||------------------------|---------------------------|
D||------------------------|---------------------------|
A||-------4----5----5/-7-7-|-------4-4--5----5-5--7-7--|
E||--5---------------------|--5-5----------------------|


-----------------------------|---------------------------|
---------------7-9--9--9-9-9-|---7-----7--9--7-----------|
-------5-7--9----------------|------9-----------9-9-7-5--|
--7-7------------------------|---------------------------|
Вернуться к началу
Посмотреть профиль Посетить сайт автора
Viktor
Элитный Машинист




Пол: Пол:Муж
Дата регистрации: 25.04.2005
Сообщения: 4030
Откуда: Белибердичев Рио-де-Житомирской обл.

СообщениеДобавлено: Wed Sep 28, 2005 13:14 Ответить с цитатой

Чего-то совсем махонький. Или там кроме нескольких нот ничего нет?
Вернуться к началу
Посмотреть профиль
Kostr
Элитный Машинист


Возраст: 32
По зодиаку: Козерог
Пол: Пол:Муж
Дата регистрации: 06.01.2004
Сообщения: 1284

СообщениеДобавлено: Wed Sep 28, 2005 14:40 Ответить с цитатой

Basil IV
Да, спасибо.


Viktor

Не, он 40ка секундный. И, фактически, там только то, что в вышеприведенной табулатуре.
Вернуться к началу
Посмотреть профиль Посетить сайт автора
JohnMangls
Гость


Возраст: 26
По зодиаку: Рыбы
Пол: Пол:Муж
Дата регистрации: 25.02.2010
Сообщения: 6
Откуда: Санкт-Петербург

СообщениеДобавлено: Thu Feb 25, 2010 22:30 Ответить с цитатой

Kostr, будте добры, скиньте мне миди - john2mg@front.ru
Вернуться к началу
Посмотреть профиль
JohnMangls
Гость


Возраст: 26
По зодиаку: Рыбы
Пол: Пол:Муж
Дата регистрации: 25.02.2010
Сообщения: 6
Откуда: Санкт-Петербург

СообщениеДобавлено: Sun Nov 07, 2010 00:23 Ответить с цитатой

Вот моя подборка соло:

Код:
   
E||--------------------7b--------|-------------------------------|
B||-----------------7------------|--10b12--------------------/7--|
G||-----/6----2/8----------------|---------9h11p9--7-------------|
D||------------------------------|--------------------9----------|
A||------------------------------|-------------------------------|
E||------------------------------|-------------------------------|


 
-----------------------------|-------------------------------|
--10b12-------------------7--|--10b12------------------------|
---------9h11p9--7-----------|---------9h11p9--7-----------7-|
-----------------------------|--------------------9----7h9---|
-----------------------------|-------------------------------|
-----------------------------|-------------------------------|


   
--------------------------------7--|--9b10-9----7p5----------------|
------------------------/7-9h10----|---------------------------/7--|
---------7--------7----------------|-----------------7-------------|
--9h11p9---9h11p9---9--------------|--------------------9----------|
-----------------------------------|-------------------------------|
-----------------------------------|-------------------------------|


------------------------------|-------------------------------|
--10b12-------------------/7--|--10b12------------------------|
---------9h11p9--7------------|---------9h11p9--7-------------|
------------------------------|--------------------9----7h9p7-|
------------------------------|-------------------------------|
------------------------------|-------------------------------|


         
--------------------------------|--------------------------|
--------------------------------|--------------------------|
--------------------------------|----4h7p4-7-7p4-----------|
--9b-------/7-7\------9~--------|--7-----------------------|
--------------------------------|--------------------------|
--------------------------------|--------------------------|


         
----------------------------|--------------------------|
----------------------------|--------------------------|
--7p-4----7---7p-4----------|----4h7p4-7-7p4-----------|
----------------------------|--7-----------------------|
----------------------------|--------------------------|
----------------------------|--------------------------|


         
--7p5----------------------||
----------7p5--------------||
---------------------------||
-------------7-----(7)\----||
---------------------------||
---------------------------||
Вернуться к началу
Посмотреть профиль
Sarto
Модератор


Возраст: 55
По зодиаку: Лев
Пол: Пол:Муж
Дата регистрации: 25.02.2001
Сообщения: 1453
Откуда: Москва, Люблино

СообщениеДобавлено: Tue Nov 23, 2010 20:02 Ответить с цитатой

Табы Машины Времени это очень хорошо, - дефицит ))))
Вернуться к началу
Посмотреть профиль Посетить сайт автора
Показать сообщения:   
Начать новую тему   Ответить на тему    Список форумов Машина Времени -> Аккорды Часовой пояс: GMT + 4
Страница 1 из 1

 
Перейти:  
Вы не можете начинать темы
Вы не можете отвечать на сообщения
Вы не можете редактировать свои сообщения
Вы не можете удалять свои сообщения
Вы не можете голосовать в опросах
Вы не можете вкладывать файлы
Вы можете скачивать файлы




>>На сайт "МВ"<<

Powered by phpBB © 2001, 2005 phpBB Group


Page generation time: 0,0508s (PHP: 87% - SQL: 13%) - SQL queries: 17 - GZIP enabled - Debug on