Список форумов Машина Времени Машина Времени
- Форум сайта -
 
 FAQFAQ   ПоискПоиск   ПользователиПользователи   ГруппыГруппы   СтатистикаСтатистика   РегистрацияРегистрация 
 ПрофильПрофиль   ВходВход 
ДневникиДневники   

Соло "Улетай"

Пользователи, просматривающие этот топик: зарегистрированных: 0, скрытых: 0 и гостей: 0
Зарегистрированные пользователи: Нет
Начать новую тему   Ответить на тему    Список форумов Машина Времени -> Аккорды
 
Автор Сообщение
Kostr
Элитный Машинист


Возраст: 32
По зодиаку: Козерог
Пол: Пол:Муж
Дата регистрации: 06.01.2004
Сообщения: 1284

СообщениеДобавлено: Wed May 28, 2008 08:49 Ответить с цитатой

На скорую руку. Как обычно, почти без длительностей.

Код:
E||-----------------------------------------------------------
B||-----------------------------------------------------------
G||------2--------2-1---1-2-4-2--------7-9-7-9b11r9-7h9/11----
D||--2/4---0----4-------------------/9------------------------
A||-----------------------------------------------------------
E||-----------------------------------------------------------

E||-----------------------------------------------------------
B||--10-7-----------------------------------------------------
G||-------9b10-7h9----7-9-11-9-7------------------------------
D||------------------------------9-7--------------------------
A||----------------------------------9-7----------------------
E||-----------------------------------------------------------

E||-------------------------------9-12-14---------------------
B||-------10------7-10-9--9-10-12-----------------------------
G||--9h11----7------------------------------------------------
D||-----------------------------------------------------------
A||-----------------------------------------------------------
E||-----------------------------------------------------------

E||--------------12h14-17----15---15b17r15------------14------
B||-----12-14-15---------------------------15------------15---
G||--11--------------------------------------------14---------
D||-----------------------------------------------------------
A||-----------------------------------------------------------
E||-----------------------------------------------------------

E||-----------------------------------------------------------
B||--10/12/10-------------------------------------------------
G||--9 /11/9---9b11r9-7---------------------------------------
D||-----------------------------------------------------------
A||-----------------------------------------------------------
E||-----------------------------------------------------------
Вернуться к началу
Посмотреть профиль Посетить сайт автора
Lee
Гость


Возраст: 40
По зодиаку: Водолей
Пол: Пол:Муж
Дата регистрации: 23.05.2008
Сообщения: 2
Откуда: Казахстан

СообщениеДобавлено: Wed May 28, 2008 16:31 Ответить с цитатой

Kostr
Огромное спасибо за соло!
Сегодня попробую...

сам подбирал?
Вернуться к началу
Посмотреть профиль
Kostr
Элитный Машинист


Возраст: 32
По зодиаку: Козерог
Пол: Пол:Муж
Дата регистрации: 06.01.2004
Сообщения: 1284

СообщениеДобавлено: Wed May 28, 2008 16:38 Ответить с цитатой

Ага, сам. В сети очень мало табулатур МВ. Надеюсь это поможет. Сам давно уже по "бумажным" табам не играю, всё больше гитарпрошки - поэтому не уверен насколько читабельно.
Вернуться к началу
Посмотреть профиль Посетить сайт автора
Sarto
Модератор


Возраст: 56
По зодиаку: Лев
Пол: Пол:Муж
Дата регистрации: 25.02.2001
Сообщения: 1453
Откуда: Москва, Люблино

СообщениеДобавлено: Thu Nov 06, 2008 16:10 Ответить с цитатой

2 Kostr

Спасибо!
Вернуться к началу
Посмотреть профиль Посетить сайт автора
doc_leon
Гость


Возраст: 30
По зодиаку: Стрелец
Пол: Пол:Муж
Дата регистрации: 21.06.2010
Сообщения: 1
Откуда: Иркутск

СообщениеДобавлено: Mon Jun 21, 2010 18:09 Ответить с цитатой

Доброго времени суток. Попытался разместить ссылку на gp5 файл (сам подбирал соло), но мой аккаунт удалили. Если кому-нибудь надо, могу поделиться, только скажите, как.
Вернуться к началу
Посмотреть профиль
nowhere man
Машинист


Возраст: 26
По зодиаку: Весы
Пол: Пол:Жен
Дата регистрации: 15.01.2010
Сообщения: 90
Откуда: Рифейски горы

СообщениеДобавлено: Tue Jun 22, 2010 14:06 Ответить с цитатой

Kostr :
поэтому не уверен насколько читабельно.

ничего, прочитаем-с.. спасибоSmile
Вернуться к началу
Посмотреть профиль
Rodotvorie
Гость


Возраст: 34
По зодиаку: Лев
Пол: Пол:Жен
Дата регистрации: 19.07.2010
Сообщения: 2
Откуда: Краснодарский край

СообщениеДобавлено: Mon Jul 19, 2010 14:14 Ответить с цитатой

Спасибо за соло, давно искала. Это одна из моих самых любимых песен. Very Happy
Вернуться к началу
Посмотреть профиль Посетить сайт автора
arabella
Гость


Возраст: 28
По зодиаку: Водолей
Пол: Пол:Муж
Дата регистрации: 07.02.2015
Сообщения: 1
Откуда: dvsdfs

СообщениеДобавлено: Sat Feb 07, 2015 14:00 Ответить с цитатой

Надеюсь это поможет. Сам давно уже по "бумажным" табам не играю, всё больше гитарпрошки - поэтому не уверен насколько читабельно.
Вернуться к началу
Посмотреть профиль
Показать сообщения:   
Начать новую тему   Ответить на тему    Список форумов Машина Времени -> Аккорды Часовой пояс: GMT + 4
Страница 1 из 1

 
Перейти:  
Вы не можете начинать темы
Вы не можете отвечать на сообщения
Вы не можете редактировать свои сообщения
Вы не можете удалять свои сообщения
Вы не можете голосовать в опросах
Вы не можете вкладывать файлы
Вы можете скачивать файлы




>>На сайт "МВ"<<

Powered by phpBB © 2001, 2005 phpBB Group


Page generation time: 0,074s (PHP: 61% - SQL: 39%) - SQL queries: 17 - GZIP enabled - Debug on